0
SECTION
2
HEADER
9
$INSUNITS
70
4
9
$ACADVER
1
AC1014
9
$HANDSEED
5
FFFF
0
ENDSEC
0
SECTION
2
TABLES
0
TABLE
2
VPORT
5
8
100
AcDbSymbolTable
0
ENDTAB
0
TABLE
2
LTYPE
5
5
100
AcDbSymbolTable
0
LTYPE
5
14
100
AcDbSymbolTableRecord
100
AcDbLinetypeTableRecord
2
BYBLOCK
70
0
0
LTYPE
5
15
100
AcDbSymbolTableRecord
100
AcDbLinetypeTableRecord
2
BYLAYER
70
0
0
ENDTAB
0
TABLE
2
LAYER
5
2
100
AcDbSymbolTable
70
2
0
LAYER
5
50
100
AcDbSymbolTableRecord
100
AcDbLayerTableRecord
2
0
70
0
6
CONTINUOUS
0
ENDTAB
0
TABLE
2
STYLE
5
3
100
AcDbSymbolTable
70
1
0
STYLE
5
11
100
AcDbSymbolTableRecord
100
AcDbTextStyleTableRecord
2
STANDARD
70
0
0
ENDTAB
0
TABLE
2
VIEW
5
6
100
AcDbSymbolTable
70
0
0
ENDTAB
0
TABLE
2
UCS
5
7
100
AcDbSymbolTable
70
0
0
ENDTAB
0
TABLE
2
APPID
5
9
100
AcDbSymbolTable
70
2
0
APPID
5
12
100
AcDbSymbolTableRecord
100
AcDbRegAppTableRecord
2
ACAD
70
0
0
ENDTAB
0
TABLE
2
DIMSTYLE
5
A
100
AcDbSymbolTable
70
1
0
ENDTAB
0
TABLE
2
BLOCK_RECORD
5
1
100
AcDbSymbolTable
70
1
0
BLOCK_RECORD
5
1F
100
AcDbSymbolTableRecord
100
AcDbBlockTableRecord
2
*MODEL_SPACE
0
BLOCK_RECORD
5
1B
100
AcDbSymbolTableRecord
100
AcDbBlockTableRecord
2
*PAPER_SPACE
0
ENDTAB
0
ENDSEC
0
SECTION
2
BLOCKS
0
BLOCK
5
20
100
AcDbEntity
100
AcDbBlockBegin
2
*MODEL_SPACE
0
ENDBLK
5
21
100
AcDbEntity
100
AcDbBlockEnd
0
BLOCK
5
1C
100
AcDbEntity
100
AcDbBlockBegin
2
*PAPER_SPACE
0
ENDBLK
5
1D
100
AcDbEntity
100
AcDbBlockEnd
0
ENDSEC
0
SECTION
2
ENTITIES
0
LWPOLYLINE
5
100
100
AcDbEntity
8
0
100
AcDbPolyline
90
4
70
1
43
0.0
10
0
20
0
10
0
20
150
10
200
20
150
10
200
20
0
0
LINE
5
101
100
AcDbEntity
8
0
100
AcDbLine
10
6.8330220150314602
20
97.919136618834301
30
0
11
62.577140274897133
21
89.310006385650411
31
0
0
LINE
5
102
100
AcDbEntity
8
0
100
AcDbLine
10
62.577140274897133
20
89.310006385650411
30
0
11
95.748439160852996
21
56.138707499694561
31
0
0
LINE
5
103
100
AcDbEntity
8
0
100
AcDbLine
10
95.748439160852996
20
56.138707499694561
30
0
11
128.91973804680885
21
89.310006385650397
31
0
0
LINE
5
104
100
AcDbEntity
8
0
100
AcDbLine
10
128.91973804680885
20
89.310006385650397
30
0
11
184.66385630667443
21
97.919136618834287
31
0
0
LINE
5
105
100
AcDbEntity
8
0
100
AcDbLine
10
184.66385630667443
20
97.919136618834287
30
0
11
95.748439160852996
21
8.1362819164008116
31
0
0
LINE
5
106
100
AcDbEntity
8
0
100
AcDbLine
10
95.748439160852996
20
8.1362819164008116
30
0
11
6.8330220150314602
21
97.919136618834301
31
0
0
LWPOLYLINE
5
107
100
AcDbEntity
8
0
100
AcDbPolyline
90
3
70
1
43
0.0
10
36.346209629631197
20
55.278649224832748
10
7.0218518123703344
20
25.994987996127357
10
65.58923074884639
20
25.994987996127357
0
LWPOLYLINE
5
108
100
AcDbEntity
8
0
100
AcDbPolyline
90
3
70
1
43
0.0
10
155.62828477664473
20
55.832656347153097
10
126.35962598985857
20
26.278459521202365
10
185.47080528261921
20
26.278459521202365
0
LINE
5
109
100
AcDbEntity
8
0
100
AcDbLine
10
51.290730587942228
20
53.02770926761756
30
0
11
44.933561740764461
21
46.67936295243058
31
0
0
LINE
5
110
100
AcDbEntity
8
0
100
AcDbLine
10
132.33985957898793
20
45.084679485848191
30
0
11
138.72338106152023
21
38.762832432088949
31
0
0
LINE
5
111
100
AcDbEntity
8
0
100
AcDbLine
10
95.748439160852996
20
56.138707499694561
30
0
11
95.748439160852996
21
8.1362819164008116
31
0
0
ENDSEC
0
SECTION
2
OBJECTS
0
DICTIONARY
5
C
100
AcDbDictionary
3
ACAD_GROUP
350
D
3
ACAD_MLINESTYLE
350
17
0
DICTIONARY
5
D
100
AcDbDictionary
0
DICTIONARY
5
1A
330
C
100
AcDbDictionary
0
DICTIONARY
5
17
100
AcDbDictionary
0
ENDSEC
0
EOF
